1. Audioslave - I am the highway (Band Version)

I am the highway (Band Version)

Artist: Audioslave

I Am the Highway – Audioslave
Arrangement
Intro 1 -> Ryan
 Slow attack chords C  G  Dm  Am  x2

Intro 2 -> Jay
  AmAdd9 riff x2

Verse 1 -> Jay

Chorus -> Jay chords, Ryan electric riff
Play over Chorus – with Overdrive/Tremolo effects listen for the timing
e|---------|---------|---------|---------|---------------|---------|---------|---------|---------|
B|---------|---------|---------|---------|---------------|---------|---------|---------|---------|
G|-2-------|---------|---------|---------|-------2-------|---------|---------|---------|---------|
D|---2-----|---------|---------|-0-------|---------2-----|---------|---------|--0------|---------|
A|-----0---|-3-------|---------|---------|-0---------0---|-3-------|---------|---------|---------|
E|---------|---------|-3-------|---------|---------------|---------|-3-------|---------|-0-------|

Intro 2 -> Jay
  AmAdd9 riff x2

Verse 2 -> Jay

Chorus -> Jay chords, Ryan electric riff
Play over Chorus – with Overdrive/Tremolo effects listen for the timing
e|---------|---------|---------|---------|---------------|---------|---------|---------|---------|
B|---------|---------|---------|---------|---------------|---------|---------|---------|---------|
G|-2-------|---------|---------|---------|-------2-------|---------|---------|---------|---------|
D|---2-----|---------|---------|-0-------|---------2-----|---------|---------|--0------|---------|
A|-----0---|-3-------|---------|---------|-0---------0---|-3-------|---------|---------|---------|
E|---------|---------|-3-------|---------|---------------|---------|-3-------|---------|-0-------|

Repeat last line of this Chorus

SOLO -> Ryan

F  C  G  Am  x4  (Chords behind solo -> Jay)

Chorus -> Jay chords, Ryan electric riff
Play over Chorus – with Overdrive/Tremolo effects listen for the timing
e|---------|---------|---------|---------|---------------|---------|---------|---------|---------|
B|---------|---------|---------|---------|---------------|---------|---------|---------|---------|
G|-2-------|---------|---------|---------|-------2-------|---------|---------|---------|---------|
D|---2-----|---------|---------|-0-------|---------2-----|---------|---------|--0------|---------|
A|-----0---|-3-------|---------|---------|-0---------0---|-3-------|---------|---------|---------|
E|---------|---------|-3-------|---------|---------------|---------|-3-------|---------|-0-------|

Repeat last line of this Chorus

Intro 2 -> Jay
  AmAdd9 riff x4
Chords:
[Intro 1]
C  G  Dm  Am  x2

[Intro 2] 
   Amadd9
e|-------0-------0-----0-----0-------0----------------0-------0-----0-----0-------0---------|
B|-------0-------0-----0-----0-------0----------------0-------0-----0-----0-------0---------|
G|-------5-------5-----5-----5-------5----------------5-------5-----5-----5-------5---------|
D|-------7-------7-----7-----7-------7----------------7-------7-----7-----7-------7---------|
A|----0----------------------------0---------------0----------------------------0-----------|
E|------------------------------------------------------------------------------------------|
 
[Verse 1]
F            C     G        Am
Pearls and swine bereft of me
F        C         G        Am
long and weary my road has been
      F           C Am
I was lost in the cities
 G           C Am
alone in the hills
   F         C Am     G         C Am
no sorrow or pity for leaving I feel
 
Play over Chorus – with Overdrive/Tremolo effects listen for the timing
e|---------|---------|---------|---------|---------------|---------|---------|---------|---------|
B|---------|---------|---------|---------|---------------|---------|---------|---------|---------|
G|-2-------|---------|---------|---------|-------2-------|---------|---------|---------|---------|
D|---2-----|---------|---------|-0-------|---------2-----|---------|---------|--0------|---------|
A|-----0---|-3-------|---------|---------|-0---------0---|-3-------|---------|---------|---------|
E|---------|---------|-3-------|---------|---------------|---------|-3-------|---------|-0-------|
 
[Chorus]
C           G              Dm
    I am not your rolling wheels
         Am
I am the highway
C          G               Dm
    I am not your carpet ride
         E
I am the sky
 
[Intro 2]
Amadd9 x2
 
[Verse 2]
F            C          G         Am
Friends and liars don't wait for me
      F         C     G     Am
cause I'll get on all by myself
      F           C 
I put millions of miles
    G      Am
under my heels
    F         C        G       Am
and still too close to you I feel
 
[Chorus]
C           G              Dm
    I am not your rolling wheels
         Am
I am the highway
C          G               Dm
    I am not your carpet ride
         Am
I am the sky
C          G                Dm
    I am not your blowing wind
          Am
I am the lightning
C          G              Dm
    I am not your autumn moon, I am
     E         E
The night, the night
 
[Guitar Solo]
F  C  G  Am  x4
 
[Chorus]
C           G              Dm
    I am not your rolling wheels
         Am
I am the highway
C          G               Dm
    I am not your carpet ride
         Am
I am the sky
C          G                Dm
    I am not your blowing wind
          Am
I am the lightning
C          G              Dm
    I am not your autumn moon, I am
     E         E
The night, the night
 
[Outro]
Amadd9
yeah, yeah...  x4

[Solo]
 
 <7>=N.H. (natural harmonic)
 b= bend
 (5)=silence note
 GTR2 F C G Am
e|---------------------------------------------------------------------------------------|
B|-----------------------------8--5--8--8--5---------------------------------------------|
G|-----5-----5-----5--5--7--7-----------------7--5-----5-----5--5-----5--7--5--4---------|
D|--7-----7-----7-----------------------------------7-----5--------7--------------5------|
A|-----------------------------------------------------------------------------------7b--|
E|---------------------------------------------------------------------------------------|

 
e|-------------------------------------------------------------------------------------------|
B|-----------------------------------5--6----------------------------------------------------|
G|--------4-----5-----5--------5--7--------5--<7>---5---------------5---------5--------5-----|
D|-----5-----7--------7-----7--------------------------7--5--(5)-7-----(5)-7-----5--7-----7--|
A|--7--------------8-----8-------------------------------------------------------------------|
E|-------------------------------------------------------------------------------------------|

 
e|------------------------------0---------------------------------------------------------------|
B|-----------------------------------------13---------------------------------------------------|
G|---------<7>-------------<7>-----14--14------14--14--12--12------12--12-----------------------|
D|--7--<7>-----<7>-----<7>-------------------------------------14----------12--10b--------------|
A|-----------------<7>--------------------------------------------------------------12-12b--10--|
E|----------------------------------------------------------------------------------------------|

 
e|--------------------------------------------------------------------------------------------12--12--
B|----------13--------------------------13------------12--13--15--15--13--13--12--12------------------
G|--14--14------14--14--12--12------12------14--14b-----------------------------------14--14----------
D|------------------------------14--------------------------------------------------------------------
A|----------------------------------------------------------------------------------------------------
E|----------------------------------------------------------------------------------------------------

 
e|-------------------------------------------------------------------------------------------------|
B|--15--15--13--13--12--12------------------------12--12-------------------------------------------|
G|--------------------------12--12---------12--12---------14--14-14-14-14-14-14-14-14-14-14-14-14--|
D|----------------------------------14--14---------------------------------------------------------|
A|-------------------------------------------------------------------------------------------------|
E|-------------------------------------------------------------------------------------------------|